Home
 

Application Process
 

Classes Description
 

Festival Schedule
 

Students Requirements
 

Faculty Members
 

Application Form
 

Audition Form
 

Advanced Group Form
 

 

Lección 10 - Acordes Séptimos

En esta lección veremos los acordes séptimos (dominantes) y sus tablaturas

Do 7

Se representa de la siguiente forma. Se tocan todas las notas a la vez, solamente en las cuerdas en que aparece un número.
-------3-----------
-------2-----------
-------3-----------
--------------------
--------------------


Re 7

Se representa de la siguiente forma. Se tocan todas las notas a la vez, solamente en las cuerdas en que aparece un número.
-------2------------
-------0------------
-------3------------
-------2------------
---------------------


Mi 7

Se representa de la siguiente forma. Se tocan todas las notas a la vez, solamente en las cuerdas en que aparece un número.
--------1------------
--------0------------
--------2------------
---------------------
---------------------

Fa 7

Se representa de la siguiente forma. Se tocan todas las notas a la vez, solamente en las cuerdas en que aparece un número.
---------------------
--------2------------
--------1------------
--------2-----------
---------------------


Sol 7

Se representa de la siguiente forma. Se tocan todas las notas a la vez, solamente en las cuerdas en que aparece un número.
----------------------
---------3------------
---------2------------
---------3------------
-----------------------

La 7

Se representa de la siguiente forma. Se tocan todas las notas a la vez, solamente en las cuerdas en que aparece un número.
----------------------
---------2-----------
---------0-----------
---------3-----------
---------2-----------

Si 7

Se representa de la siguiente forma. Se tocan todas las notas a la vez, solamente en las cuerdas en que aparece un número.

---------2------------
---------1------------
---------0------------
---------2------------
-----------------------

Practica e identifica cada uno de las acordes séptimos

En la próxima comenzaremos con las canciones que hacen honor a nuestra música. Entre los géneros que estudiaremos están la danza, mazurca, vals, bolero, canciones navideñas, el seis y el aguinaldo....